ISO-10303-21;
HEADER;
FILE_DESCRIPTION (( 'STEP AP203' ),
    '1' );
FILE_NAME ('BK7-SPDBSP-25.4-1000.STEP',
    '2020-12-22T02:22:00',
    ( '' ),
    ( '' ),
    'SwSTEP 2.0',
    'SolidWorks 2020',
    '' );
FILE_SCHEMA (( 'CONFIG_CONTROL_DESIGN' ));
ENDSEC;

DATA;
#1 = ORIENTED_EDGE ( 'NONE', *, *, #19, .F. ) ;
#2 = CC_DESIGN_DATE_AND_TIME_ASSIGNMENT ( #117, #127, ( #153 ) ) ;
#3 = PERSON_AND_ORGANIZATION ( #58, #79 ) ;
#4 = EDGE_LOOP ( 'NONE', ( #52, #16 ) ) ;
#5 = COORDINATED_UNIVERSAL_TIME_OFFSET ( 8, 0, .AHEAD. ) ;
#6 = CIRCLE ( 'NONE', #125, 12.69999999999999929 ) ;
#7 = ADVANCED_FACE ( 'NONE', ( #78 ), #24, .F. ) ;
#8 = PRODUCT_RELATED_PRODUCT_CATEGORY ( 'detail', '', ( #74 ) ) ;
#9 = LOCAL_TIME ( 10, 22, 0.000000000000000000, #5 ) ;
#10 = CARTESIAN_POINT ( 'NONE',  ( -5.939536975864662969E-16, 12.69999999999999929, 0.000000000000000000 ) ) ;
#11 = DIRECTION ( 'NONE',  ( -1.000000000000000000, -0.000000000000000000, -0.000000000000000000 ) ) ;
#12 = ORIENTED_EDGE ( 'NONE', *, *, #49, .F. ) ;
#13 = LINE ( 'NONE', #39, #59 ) ;
#14 = PERSON_AND_ORGANIZATION_ROLE ( 'creator' ) ;
#15 = AXIS2_PLACEMENT_3D ( 'NONE', #154, #140, #114 ) ;
#16 = ORIENTED_EDGE ( 'NONE', *, *, #113, .T. ) ;
#17 = PERSON_AND_ORGANIZATION ( #58, #79 ) ;
#18 = CC_DESIGN_APPROVAL ( #35, ( #149 ) ) ;
#19 = EDGE_CURVE ( 'NONE', #46, #112, #13, .T. ) ;
#20 = APPROVAL ( #169, 'UNSPECIFIED' ) ;
#21 = APPROVAL_PERSON_ORGANIZATION ( #130, #77, #73 ) ;
#22 = CARTESIAN_POINT ( 'NONE',  ( -1.187907395172932594E-15, 0.000000000000000000, 0.000000000000000000 ) ) ;
#23 = EDGE_CURVE ( 'NONE', #148, #46, #155, .T. ) ;
#24 = PLANE ( 'NONE',  #37 ) ;
#25 = CALENDAR_DATE ( 2020, 22, 12 ) ;
#26 = CARTESIAN_POINT ( 'NONE',  ( 3.499999999999998224, 0.000000000000000000, 0.000000000000000000 ) ) ;
#27 = CYLINDRICAL_SURFACE ( 'NONE', #121, 12.69999999999999929 ) ;
#28 = COORDINATED_UNIVERSAL_TIME_OFFSET ( 8, 0, .AHEAD. ) ;
#29 = CARTESIAN_POINT ( 'NONE',  ( -1.187907395172932594E-15, 0.000000000000000000, 0.000000000000000000 ) ) ;
#30 = PERSON_AND_ORGANIZATION_ROLE ( 'design_supplier' ) ;
#31 = CC_DESIGN_PERSON_AND_ORGANIZATION_ASSIGNMENT ( #17, #124, ( #153 ) ) ;
#32 = ORIENTED_EDGE ( 'NONE', *, *, #162, .F. ) ;
#33 = PERSON_AND_ORGANIZATION ( #58, #79 ) ;
#34 = COORDINATED_UNIVERSAL_TIME_OFFSET ( 8, 0, .AHEAD. ) ;
#35 = APPROVAL ( #146, 'UNSPECIFIED' ) ;
#36 = APPLICATION_CONTEXT ( 'configuration controlled 3d designs of mechanical parts and assemblies' ) ;
#37 = AXIS2_PLACEMENT_3D ( 'NONE', #80, #40, #168 ) ;
#38 = PERSON_AND_ORGANIZATION ( #58, #79 ) ;
#39 = CARTESIAN_POINT ( 'NONE',  ( 0.000000000000000000, 0.000000000000000000, 12.69999999999999929 ) ) ;
#40 = DIRECTION ( 'NONE',  ( -1.000000000000000000, 0.000000000000000000, -0.000000000000000000 ) ) ;
#41 =( LENGTH_UNIT ( ) NAMED_UNIT ( * ) SI_UNIT ( .MILLI., .METRE. ) );
#42 = PLANE ( 'NONE',  #165 ) ;
#43 = CARTESIAN_POINT ( 'NONE',  ( -1.187907395172932594E-15, 0.000000000000000000, 12.69999999999999929 ) ) ;
#44 = CALENDAR_DATE ( 2020, 22, 12 ) ;
#45 = PERSON_AND_ORGANIZATION_ROLE ( 'creator' ) ;
#46 = VERTEX_POINT ( 'NONE', #62 ) ;
#47 = LOCAL_TIME ( 10, 22, 0.000000000000000000, #34 ) ;
#48 = AXIS2_PLACEMENT_3D ( 'NONE', #170, #120, #86 ) ;
#49 = EDGE_CURVE ( 'NONE', #112, #160, #135, .T. ) ;
#50 = FACE_OUTER_BOUND ( 'NONE', #61, .T. ) ;
#51 = CARTESIAN_POINT ( 'NONE',  ( 0.000000000000000000, 1.555301434917138433E-15, -12.69999999999999929 ) ) ;
#52 = ORIENTED_EDGE ( 'NONE', *, *, #49, .T. ) ;
#53 = APPROVAL_ROLE ( '' ) ;
#54 = PERSON_AND_ORGANIZATION ( #58, #79 ) ;
#55 = LOCAL_TIME ( 10, 22, 0.000000000000000000, #175 ) ;
#56 = ORIENTED_EDGE ( 'NONE', *, *, #113, .F. ) ;
#57 = CALENDAR_DATE ( 2020, 22, 12 ) ;
#58 = PERSON ( 'UNSPECIFIED', 'UNSPECIFIED', 'UNSPECIFIED', ('UNSPECIFIED'), ('UNSPECIFIED'), ('UNSPECIFIED') ) ;
#59 = VECTOR ( 'NONE', #91, 1000.000000000000000 ) ;
#60 = CC_DESIGN_DATE_AND_TIME_ASSIGNMENT ( #108, #70, ( #132 ) ) ;
#61 = EDGE_LOOP ( 'NONE', ( #107, #94, #126, #56 ) ) ;
#62 = CARTESIAN_POINT ( 'NONE',  ( 3.499999999999998224, 0.000000000000000000, 12.69999999999999929 ) ) ;
#63 = LOCAL_TIME ( 10, 22, 0.000000000000000000, #28 ) ;
#64 = CARTESIAN_POINT ( 'NONE',  ( 0.000000000000000000, 0.000000000000000000, 0.000000000000000000 ) ) ;
#65 = CLOSED_SHELL ( 'NONE', ( #110, #96, #7, #139 ) ) ;
#66 = DIRECTION ( 'NONE',  ( -1.000000000000000000, -0.000000000000000000, -0.000000000000000000 ) ) ;
#67 = DATE_AND_TIME ( #102, #63 ) ;
#68 = PRODUCT_DEFINITION_SHAPE ( 'NONE', 'NONE',  #132 ) ;
#69 = LINE ( 'NONE', #51, #137 ) ;
#70 = DATE_TIME_ROLE ( 'creation_date' ) ;
#71 = CC_DESIGN_APPROVAL ( #20, ( #153 ) ) ;
#72 = EDGE_LOOP ( 'NONE', ( #133, #158, #12, #1 ) ) ;
#73 = APPROVAL_ROLE ( '' ) ;
#74 = PRODUCT ( 'BK7-SPDBSP-25.4-1000', 'BK7-SPDBSP-25.4-1000', '', ( #75 ) ) ;
#75 = MECHANICAL_CONTEXT ( 'NONE', #36, 'mechanical' ) ;
#76 = CC_DESIGN_PERSON_AND_ORGANIZATION_ASSIGNMENT ( #54, #45, ( #149 ) ) ;
#77 = APPROVAL ( #84, 'UNSPECIFIED' ) ;
#78 = FACE_OUTER_BOUND ( 'NONE', #104, .T. ) ;
#79 = ORGANIZATION ( 'UNSPECIFIED', 'UNSPECIFIED', '' ) ;
#80 = CARTESIAN_POINT ( 'NONE',  ( 3.499999999999999112, 12.69999999999999929, 0.000000000000000000 ) ) ;
#81 = EDGE_CURVE ( 'NONE', #148, #160, #69, .T. ) ;
#82 = APPROVAL_ROLE ( '' ) ;
#83 = APPROVAL_PERSON_ORGANIZATION ( #38, #20, #53 ) ;
#84 = APPROVAL_STATUS ( 'not_yet_approved' ) ;
#85 = UNCERTAINTY_MEASURE_WITH_UNIT (LENGTH_MEASURE( 1.000000000000000082E-05 ), #41, 'distance_accuracy_value', 'NONE');
#86 = DIRECTION ( 'NONE',  ( 0.000000000000000000, 0.000000000000000000, 1.000000000000000000 ) ) ;
#87 = CC_DESIGN_PERSON_AND_ORGANIZATION_ASSIGNMENT ( #33, #14, ( #132 ) ) ;
#88 = DIRECTION ( 'NONE',  ( 1.000000000000000000, 0.000000000000000000, 0.000000000000000000 ) ) ;
#89 = DIRECTION ( 'NONE',  ( 0.000000000000000000, 0.000000000000000000, 1.000000000000000000 ) ) ;
#90 =( NAMED_UNIT ( * ) PLANE_ANGLE_UNIT ( ) SI_UNIT ( $, .RADIAN. ) );
#91 = DIRECTION ( 'NONE',  ( -1.000000000000000000, -0.000000000000000000, -0.000000000000000000 ) ) ;
#92 = DATE_AND_TIME ( #44, #55 ) ;
#93 = PERSON_AND_ORGANIZATION ( #58, #79 ) ;
#94 = ORIENTED_EDGE ( 'NONE', *, *, #23, .T. ) ;
#95 = PERSON_AND_ORGANIZATION ( #58, #79 ) ;
#96 = ADVANCED_FACE ( 'NONE', ( #50 ), #27, .T. ) ;
#97 = DESIGN_CONTEXT ( 'detailed design', #147, 'design' ) ;
#98 = CYLINDRICAL_SURFACE ( 'NONE', #48, 12.69999999999999929 ) ;
#99 = LOCAL_TIME ( 10, 22, 0.000000000000000000, #157 ) ;
#100 = CARTESIAN_POINT ( 'NONE',  ( 3.499999999999998224, 1.555301434917138433E-15, -12.69999999999999929 ) ) ;
#101 = AXIS2_PLACEMENT_3D ( 'NONE', #26, #11, #89 ) ;
#102 = CALENDAR_DATE ( 2020, 22, 12 ) ;
#103 = FACE_OUTER_BOUND ( 'NONE', #4, .T. ) ;
#104 = EDGE_LOOP ( 'NONE', ( #32, #122 ) ) ;
#105 = APPROVAL_DATE_TIME ( #92, #77 ) ;
#106 = DIRECTION ( 'NONE',  ( 0.000000000000000000, 0.000000000000000000, 1.000000000000000000 ) ) ;
#107 = ORIENTED_EDGE ( 'NONE', *, *, #81, .F. ) ;
#108 = DATE_AND_TIME ( #134, #47 ) ;
#109 = CC_DESIGN_SECURITY_CLASSIFICATION ( #153, ( #149 ) ) ;
#110 = ADVANCED_FACE ( 'NONE', ( #116 ), #98, .T. ) ;
#111 = AXIS2_PLACEMENT_3D ( 'NONE', #119, #106, #161 ) ;
#112 = VERTEX_POINT ( 'NONE', #43 ) ;
#113 = EDGE_CURVE ( 'NONE', #160, #112, #6, .T. ) ;
#114 = DIRECTION ( 'NONE',  ( 0.000000000000000000, 0.000000000000000000, 1.000000000000000000 ) ) ;
#115 = CIRCLE ( 'NONE', #15, 12.69999999999999929 ) ;
#116 = FACE_OUTER_BOUND ( 'NONE', #72, .T. ) ;
#117 = DATE_AND_TIME ( #25, #9 ) ;
#118 = DIRECTION ( 'NONE',  ( -1.000000000000000000, -0.000000000000000000, -0.000000000000000000 ) ) ;
#119 = CARTESIAN_POINT ( 'NONE',  ( 0.000000000000000000, 0.000000000000000000, 0.000000000000000000 ) ) ;
#120 = DIRECTION ( 'NONE',  ( -1.000000000000000000, -0.000000000000000000, -0.000000000000000000 ) ) ;
#121 = AXIS2_PLACEMENT_3D ( 'NONE', #64, #66, #144 ) ;
#122 = ORIENTED_EDGE ( 'NONE', *, *, #23, .F. ) ;
#123 = DATE_AND_TIME ( #57, #99 ) ;
#124 = PERSON_AND_ORGANIZATION_ROLE ( 'classification_officer' ) ;
#125 = AXIS2_PLACEMENT_3D ( 'NONE', #22, #129, #156 ) ;
#126 = ORIENTED_EDGE ( 'NONE', *, *, #19, .T. ) ;
#127 = DATE_TIME_ROLE ( 'classification_date' ) ;
#128 = CARTESIAN_POINT ( 'NONE',  ( -1.187907395172932594E-15, 1.555301434917138433E-15, -12.69999999999999929 ) ) ;
#129 = DIRECTION ( 'NONE',  ( -1.000000000000000000, -0.000000000000000000, -0.000000000000000000 ) ) ;
#130 = PERSON_AND_ORGANIZATION ( #58, #79 ) ;
#131 = ADVANCED_BREP_SHAPE_REPRESENTATION ( 'BK7-SPDBSP-25.4-1000', ( #138, #111 ), #136 ) ;
#132 = PRODUCT_DEFINITION ( 'UNKNOWN', '', #149, #97 ) ;
#133 = ORIENTED_EDGE ( 'NONE', *, *, #162, .T. ) ;
#134 = CALENDAR_DATE ( 2020, 22, 12 ) ;
#135 = CIRCLE ( 'NONE', #166, 12.69999999999999929 ) ;
#136 =( GEOMETRIC_REPRESENTATION_CONTEXT ( 3 ) GLOBAL_UNCERTAINTY_ASSIGNED_CONTEXT ( ( #85 ) ) GLOBAL_UNIT_ASSIGNED_CONTEXT ( ( #41, #90, #141 ) ) REPRESENTATION_CONTEXT ( 'NONE', 'WORKASPACE' ) );
#137 = VECTOR ( 'NONE', #143, 1000.000000000000000 ) ;
#138 = MANIFOLD_SOLID_BREP ( 'Ðý×', #65 ) ;
#139 = ADVANCED_FACE ( 'NONE', ( #103 ), #42, .F. ) ;
#140 = DIRECTION ( 'NONE',  ( -1.000000000000000000, -0.000000000000000000, -0.000000000000000000 ) ) ;
#141 =( NAMED_UNIT ( * ) SI_UNIT ( $, .STERADIAN. ) SOLID_ANGLE_UNIT ( ) );
#142 = SHAPE_DEFINITION_REPRESENTATION ( #68, #131 ) ;
#143 = DIRECTION ( 'NONE',  ( -1.000000000000000000, -0.000000000000000000, -0.000000000000000000 ) ) ;
#144 = DIRECTION ( 'NONE',  ( 0.000000000000000000, 0.000000000000000000, 1.000000000000000000 ) ) ;
#145 = APPROVAL_DATE_TIME ( #123, #35 ) ;
#146 = APPROVAL_STATUS ( 'not_yet_approved' ) ;
#147 = APPLICATION_CONTEXT ( 'configuration controlled 3d designs of mechanical parts and assemblies' ) ;
#148 = VERTEX_POINT ( 'NONE', #100 ) ;
#149 = PRODUCT_DEFINITION_FORMATION_WITH_SPECIFIED_SOURCE ( 'ANY', '', #74, .NOT_KNOWN. ) ;
#150 = APPLICATION_PROTOCOL_DEFINITION ( 'international standard', 'config_control_design', 1994, #36 ) ;
#151 = APPLICATION_PROTOCOL_DEFINITION ( 'international standard', 'config_control_design', 1994, #147 ) ;
#152 = CC_DESIGN_APPROVAL ( #77, ( #132 ) ) ;
#153 = SECURITY_CLASSIFICATION ( '', '', #159 ) ;
#154 = CARTESIAN_POINT ( 'NONE',  ( 3.499999999999998224, 0.000000000000000000, 0.000000000000000000 ) ) ;
#155 = CIRCLE ( 'NONE', #101, 12.69999999999999929 ) ;
#156 = DIRECTION ( 'NONE',  ( 0.000000000000000000, 0.000000000000000000, 1.000000000000000000 ) ) ;
#157 = COORDINATED_UNIVERSAL_TIME_OFFSET ( 8, 0, .AHEAD. ) ;
#158 = ORIENTED_EDGE ( 'NONE', *, *, #81, .T. ) ;
#159 = SECURITY_CLASSIFICATION_LEVEL ( 'unclassified' ) ;
#160 = VERTEX_POINT ( 'NONE', #128 ) ;
#161 = DIRECTION ( 'NONE',  ( 1.000000000000000000, 0.000000000000000000, 0.000000000000000000 ) ) ;
#162 = EDGE_CURVE ( 'NONE', #46, #148, #115, .T. ) ;
#163 = CC_DESIGN_PERSON_AND_ORGANIZATION_ASSIGNMENT ( #3, #173, ( #74 ) ) ;
#164 = APPROVAL_PERSON_ORGANIZATION ( #95, #35, #82 ) ;
#165 = AXIS2_PLACEMENT_3D ( 'NONE', #10, #88, #174 ) ;
#166 = AXIS2_PLACEMENT_3D ( 'NONE', #29, #118, #172 ) ;
#167 = APPROVAL_DATE_TIME ( #67, #20 ) ;
#168 = DIRECTION ( 'NONE',  ( -0.000000000000000000, 0.000000000000000000, 1.000000000000000000 ) ) ;
#169 = APPROVAL_STATUS ( 'not_yet_approved' ) ;
#170 = CARTESIAN_POINT ( 'NONE',  ( 0.000000000000000000, 0.000000000000000000, 0.000000000000000000 ) ) ;
#171 = CC_DESIGN_PERSON_AND_ORGANIZATION_ASSIGNMENT ( #93, #30, ( #149 ) ) ;
#172 = DIRECTION ( 'NONE',  ( 0.000000000000000000, 0.000000000000000000, 1.000000000000000000 ) ) ;
#173 = PERSON_AND_ORGANIZATION_ROLE ( 'design_owner' ) ;
#174 = DIRECTION ( 'NONE',  ( 0.000000000000000000, 0.000000000000000000, -1.000000000000000000 ) ) ;
#175 = COORDINATED_UNIVERSAL_TIME_OFFSET ( 8, 0, .AHEAD. ) ;
ENDSEC;
END-ISO-10303-21;
